ISO-10303-21;
HEADER;
/* Generated by software containing ST-Developer
 * from STEP Tools, Inc. (www.steptools.com) 
 */

FILE_DESCRIPTION(
/* description */ (''),
/* implementation_level */ '2;1');

FILE_NAME(
/* name */ 'M:\\Modelat 3D dels productes\\0109_GRAF\\0109_01.stp',
/* time_stamp */ '2023-01-02T10:54:51+01:00',
/* author */ ('jferrer'),
/* organization */ (''),
/* preprocessor_version */ 'ST-DEVELOPER v18.1',
/* originating_system */ 'Autodesk Inventor 2022',
/* authorisation */ '');

FILE_SCHEMA (('CONFIG_CONTROL_DESIGN'));
ENDSEC;

DATA;
#10=MECHANICAL_DESIGN_GEOMETRIC_PRESENTATION_REPRESENTATION('',(#13),#233);
#11=SHAPE_REPRESENTATION_RELATIONSHIP('SRR','None',#240,#12);
#12=ADVANCED_BREP_SHAPE_REPRESENTATION('',(#14),#232);
#13=STYLED_ITEM('',(#249),#14);
#14=MANIFOLD_SOLID_BREP('Solid2',#118);
#15=FACE_BOUND('',#36,.T.);
#16=PLANE('',#151);
#17=PLANE('',#155);
#18=TOROIDAL_SURFACE('',#144,6.25,2.5);
#19=TOROIDAL_SURFACE('',#152,7.75,1.);
#20=CYLINDRICAL_SURFACE('',#143,1.621);
#21=CYLINDRICAL_SURFACE('',#148,8.75);
#22=FACE_OUTER_BOUND('',#30,.T.);
#23=FACE_OUTER_BOUND('',#31,.T.);
#24=FACE_OUTER_BOUND('',#32,.T.);
#25=FACE_OUTER_BOUND('',#33,.T.);
#26=FACE_OUTER_BOUND('',#34,.T.);
#27=FACE_OUTER_BOUND('',#35,.T.);
#28=FACE_OUTER_BOUND('',#37,.T.);
#29=FACE_OUTER_BOUND('',#38,.T.);
#30=EDGE_LOOP('',(#80,#81,#82));
#31=EDGE_LOOP('',(#83,#84,#85,#86));
#32=EDGE_LOOP('',(#87,#88,#89,#90));
#33=EDGE_LOOP('',(#91,#92,#93,#94));
#34=EDGE_LOOP('',(#95,#96,#97,#98,#99));
#35=EDGE_LOOP('',(#100));
#36=EDGE_LOOP('',(#101));
#37=EDGE_LOOP('',(#102,#103,#104,#105,#106));
#38=EDGE_LOOP('',(#107));
#39=LINE('',#203,#43);
#40=LINE('',#208,#44);
#41=LINE('',#211,#45);
#42=LINE('',#222,#46);
#43=VECTOR('',#162,0.8105);
#44=VECTOR('',#167,1.8105);
#45=VECTOR('',#172,1.621);
#46=VECTOR('',#185,8.75);
#47=CIRCLE('',#139,1.621);
#48=CIRCLE('',#141,2.);
#49=CIRCLE('',#142,1.621);
#50=CIRCLE('',#145,6.25);
#51=CIRCLE('',#146,2.5);
#52=CIRCLE('',#147,8.75);
#53=CIRCLE('',#149,8.75);
#54=CIRCLE('',#150,8.75);
#55=CIRCLE('',#153,7.75);
#56=CIRCLE('',#154,1.);
#57=VERTEX_POINT('',#200);
#58=VERTEX_POINT('',#202);
#59=VERTEX_POINT('',#205);
#60=VERTEX_POINT('',#207);
#61=VERTEX_POINT('',#213);
#62=VERTEX_POINT('',#215);
#63=VERTEX_POINT('',#219);
#64=VERTEX_POINT('',#220);
#65=VERTEX_POINT('',#226);
#66=EDGE_CURVE('',#57,#57,#47,.T.);
#67=EDGE_CURVE('',#57,#58,#39,.T.);
#68=EDGE_CURVE('',#59,#59,#48,.T.);
#69=EDGE_CURVE('',#59,#60,#40,.T.);
#70=EDGE_CURVE('',#60,#60,#49,.T.);
#71=EDGE_CURVE('',#60,#57,#41,.T.);
#72=EDGE_CURVE('',#61,#61,#50,.T.);
#73=EDGE_CURVE('',#61,#62,#51,.T.);
#74=EDGE_CURVE('',#62,#62,#52,.T.);
#75=EDGE_CURVE('',#63,#64,#53,.T.);
#76=EDGE_CURVE('',#63,#62,#42,.T.);
#77=EDGE_CURVE('',#64,#63,#54,.T.);
#78=EDGE_CURVE('',#65,#65,#55,.T.);
#79=EDGE_CURVE('',#65,#64,#56,.T.);
#80=ORIENTED_EDGE('',*,*,#66,.T.);
#81=ORIENTED_EDGE('',*,*,#67,.T.);
#82=ORIENTED_EDGE('',*,*,#67,.F.);
#83=ORIENTED_EDGE('',*,*,#68,.F.);
#84=ORIENTED_EDGE('',*,*,#69,.T.);
#85=ORIENTED_EDGE('',*,*,#70,.F.);
#86=ORIENTED_EDGE('',*,*,#69,.F.);
#87=ORIENTED_EDGE('',*,*,#70,.T.);
#88=ORIENTED_EDGE('',*,*,#71,.T.);
#89=ORIENTED_EDGE('',*,*,#66,.F.);
#90=ORIENTED_EDGE('',*,*,#71,.F.);
#91=ORIENTED_EDGE('',*,*,#72,.T.);
#92=ORIENTED_EDGE('',*,*,#73,.T.);
#93=ORIENTED_EDGE('',*,*,#74,.T.);
#94=ORIENTED_EDGE('',*,*,#73,.F.);
#95=ORIENTED_EDGE('',*,*,#75,.F.);
#96=ORIENTED_EDGE('',*,*,#76,.T.);
#97=ORIENTED_EDGE('',*,*,#74,.F.);
#98=ORIENTED_EDGE('',*,*,#76,.F.);
#99=ORIENTED_EDGE('',*,*,#77,.F.);
#100=ORIENTED_EDGE('',*,*,#72,.F.);
#101=ORIENTED_EDGE('',*,*,#68,.T.);
#102=ORIENTED_EDGE('',*,*,#78,.T.);
#103=ORIENTED_EDGE('',*,*,#79,.T.);
#104=ORIENTED_EDGE('',*,*,#77,.T.);
#105=ORIENTED_EDGE('',*,*,#75,.T.);
#106=ORIENTED_EDGE('',*,*,#79,.F.);
#107=ORIENTED_EDGE('',*,*,#78,.F.);
#108=CONICAL_SURFACE('',#138,0.8105,1.02974425867665);
#109=CONICAL_SURFACE('',#140,1.8105,0.785398163397448);
#110=ADVANCED_FACE('',(#22),#108,.F.);
#111=ADVANCED_FACE('',(#23),#109,.F.);
#112=ADVANCED_FACE('',(#24),#20,.F.);
#113=ADVANCED_FACE('',(#25),#18,.T.);
#114=ADVANCED_FACE('',(#26),#21,.T.);
#115=ADVANCED_FACE('',(#27,#15),#16,.F.);
#116=ADVANCED_FACE('',(#28),#19,.T.);
#117=ADVANCED_FACE('',(#29),#17,.T.);
#118=CLOSED_SHELL('',(#110,#111,#112,#113,#114,#115,#116,#117));
#119=DERIVED_UNIT_ELEMENT(#121,1.);
#120=DERIVED_UNIT_ELEMENT(#235,-3.);
#121=(
MASS_UNIT()
NAMED_UNIT(*)
SI_UNIT($,.GRAM.)
);
#122=DERIVED_UNIT((#119,#120));
#123=MEASURE_REPRESENTATION_ITEM('density measure',
POSITIVE_RATIO_MEASURE(1.),#122);
#124=PROPERTY_DEFINITION_REPRESENTATION(#129,#126);
#125=PROPERTY_DEFINITION_REPRESENTATION(#130,#127);
#126=REPRESENTATION('material name',(#128),#232);
#127=REPRESENTATION('density',(#123),#232);
#128=DESCRIPTIVE_REPRESENTATION_ITEM('Gen\X\E9rico','Gen\X\E9rico');
#129=PROPERTY_DEFINITION('material property','material name',#242);
#130=PROPERTY_DEFINITION('material property','density of part',#242);
#131=DATE_TIME_ROLE('creation_date');
#132=CC_DESIGN_DATE_AND_TIME_ASSIGNMENT(#133,#131,(#242));
#133=DATE_AND_TIME(#134,#135);
#134=CALENDAR_DATE(2015,10,4);
#135=LOCAL_TIME(0,0,0.,#136);
#136=COORDINATED_UNIVERSAL_TIME_OFFSET(0,0,.BEHIND.);
#137=AXIS2_PLACEMENT_3D('placement',#198,#156,#157);
#138=AXIS2_PLACEMENT_3D('',#199,#158,#159);
#139=AXIS2_PLACEMENT_3D('',#201,#160,#161);
#140=AXIS2_PLACEMENT_3D('',#204,#163,#164);
#141=AXIS2_PLACEMENT_3D('',#206,#165,#166);
#142=AXIS2_PLACEMENT_3D('',#209,#168,#169);
#143=AXIS2_PLACEMENT_3D('',#210,#170,#171);
#144=AXIS2_PLACEMENT_3D('',#212,#173,#174);
#145=AXIS2_PLACEMENT_3D('',#214,#175,#176);
#146=AXIS2_PLACEMENT_3D('',#216,#177,#178);
#147=AXIS2_PLACEMENT_3D('',#217,#179,#180);
#148=AXIS2_PLACEMENT_3D('',#218,#181,#182);
#149=AXIS2_PLACEMENT_3D('',#221,#183,#184);
#150=AXIS2_PLACEMENT_3D('',#223,#186,#187);
#151=AXIS2_PLACEMENT_3D('',#224,#188,#189);
#152=AXIS2_PLACEMENT_3D('',#225,#190,#191);
#153=AXIS2_PLACEMENT_3D('',#227,#192,#193);
#154=AXIS2_PLACEMENT_3D('',#228,#194,#195);
#155=AXIS2_PLACEMENT_3D('',#229,#196,#197);
#156=DIRECTION('axis',(0.,0.,1.));
#157=DIRECTION('refdir',(1.,0.,0.));
#158=DIRECTION('center_axis',(0.,0.,-1.));
#159=DIRECTION('ref_axis',(-1.,0.,0.));
#160=DIRECTION('center_axis',(0.,0.,-1.));
#161=DIRECTION('ref_axis',(-1.,0.,0.));
#162=DIRECTION('',(-0.857167300702112,1.04972719113862E-16,0.515038074910054));
#163=DIRECTION('center_axis',(0.,0.,-1.));
#164=DIRECTION('ref_axis',(-1.,0.,0.));
#165=DIRECTION('center_axis',(0.,0.,1.));
#166=DIRECTION('ref_axis',(-1.,0.,0.));
#167=DIRECTION('',(-0.707106781186547,8.65956056235493E-17,0.707106781186547));
#168=DIRECTION('center_axis',(0.,0.,-1.));
#169=DIRECTION('ref_axis',(-1.,0.,0.));
#170=DIRECTION('center_axis',(0.,0.,-1.));
#171=DIRECTION('ref_axis',(-1.,0.,0.));
#172=DIRECTION('',(0.,0.,1.));
#173=DIRECTION('center_axis',(0.,0.,-1.));
#174=DIRECTION('ref_axis',(-1.,0.,0.));
#175=DIRECTION('center_axis',(0.,0.,1.));
#176=DIRECTION('ref_axis',(-1.,0.,0.));
#177=DIRECTION('center_axis',(-1.22464679914735E-16,-1.,0.));
#178=DIRECTION('ref_axis',(1.,-1.22464679914735E-16,0.));
#179=DIRECTION('center_axis',(0.,0.,-1.));
#180=DIRECTION('ref_axis',(-1.,0.,0.));
#181=DIRECTION('center_axis',(0.,0.,1.));
#182=DIRECTION('ref_axis',(-1.,0.,0.));
#183=DIRECTION('center_axis',(0.,0.,1.));
#184=DIRECTION('ref_axis',(-1.,0.,0.));
#185=DIRECTION('',(0.,0.,-1.));
#186=DIRECTION('center_axis',(0.,0.,1.));
#187=DIRECTION('ref_axis',(-1.,0.,0.));
#188=DIRECTION('center_axis',(0.,0.,1.));
#189=DIRECTION('ref_axis',(1.,0.,0.));
#190=DIRECTION('center_axis',(0.,0.,1.));
#191=DIRECTION('ref_axis',(1.,0.,0.));
#192=DIRECTION('center_axis',(0.,0.,-1.));
#193=DIRECTION('ref_axis',(-1.,0.,0.));
#194=DIRECTION('center_axis',(1.22464679914735E-16,-1.,0.));
#195=DIRECTION('ref_axis',(-1.,-1.22464679914735E-16,0.));
#196=DIRECTION('center_axis',(0.,0.,1.));
#197=DIRECTION('ref_axis',(1.,0.,0.));
#198=CARTESIAN_POINT('',(0.,0.,0.));
#199=CARTESIAN_POINT('Origin',(0.,0.,10.4869975317218));
#200=CARTESIAN_POINT('',(1.621,-1.98515246141786E-16,10.));
#201=CARTESIAN_POINT('Origin',(0.,0.,10.));
#202=CARTESIAN_POINT('',(0.,0.,10.9739950634437));
#203=CARTESIAN_POINT('',(0.8105,-9.9257623070893E-17,10.4869975317218));
#204=CARTESIAN_POINT('Origin',(0.,0.,0.1895));
#205=CARTESIAN_POINT('',(2.,-2.44929359829471E-16,-1.38777878078145E-16));
#206=CARTESIAN_POINT('Origin',(0.,0.,0.));
#207=CARTESIAN_POINT('',(1.621,-1.98515246141786E-16,0.379));
#208=CARTESIAN_POINT('',(1.8105,-2.21722302985628E-16,0.1895));
#209=CARTESIAN_POINT('Origin',(0.,0.,0.379));
#210=CARTESIAN_POINT('Origin',(0.,0.,5.));
#211=CARTESIAN_POINT('',(1.621,-1.98515246141786E-16,5.));
#212=CARTESIAN_POINT('Origin',(0.,0.,2.5));
#213=CARTESIAN_POINT('',(6.25,7.65404249467096E-16,0.));
#214=CARTESIAN_POINT('Origin',(0.,0.,0.));
#215=CARTESIAN_POINT('',(8.75,-1.07156594925393E-15,2.5));
#216=CARTESIAN_POINT('Origin',(6.25,-7.65404249467096E-16,2.5));
#217=CARTESIAN_POINT('Origin',(0.,0.,2.5));
#218=CARTESIAN_POINT('Origin',(0.,0.,0.));
#219=CARTESIAN_POINT('',(8.75,1.07156594925393E-15,27.));
#220=CARTESIAN_POINT('',(-8.75,-1.07156594925393E-15,27.));
#221=CARTESIAN_POINT('Origin',(0.,0.,27.));
#222=CARTESIAN_POINT('',(8.75,1.07156594925393E-15,0.));
#223=CARTESIAN_POINT('Origin',(0.,0.,27.));
#224=CARTESIAN_POINT('Origin',(-5.12239267056935E-16,-2.11471052309554E-16,
0.));
#225=CARTESIAN_POINT('Origin',(0.,0.,27.));
#226=CARTESIAN_POINT('',(-7.75,-9.49101269339199E-16,28.));
#227=CARTESIAN_POINT('Origin',(0.,0.,28.));
#228=CARTESIAN_POINT('Origin',(-7.75,-9.49101269339199E-16,27.));
#229=CARTESIAN_POINT('Origin',(-5.12239267056935E-16,-2.11471052309554E-16,
28.));
#230=UNCERTAINTY_MEASURE_WITH_UNIT(LENGTH_MEASURE(0.01),#234,
'DISTANCE_ACCURACY_VALUE',
'Maximum model space distance between geometric entities at asserted c
onnectivities');
#231=UNCERTAINTY_MEASURE_WITH_UNIT(LENGTH_MEASURE(0.01),#234,
'DISTANCE_ACCURACY_VALUE',
'Maximum model space distance between geometric entities at asserted c
onnectivities');
#232=(
GEOMETRIC_REPRESENTATION_CONTEXT(3)
GLOBAL_UNCERTAINTY_ASSIGNED_CONTEXT((#230))
GLOBAL_UNIT_ASSIGNED_CONTEXT((#234,#236,#237))
REPRESENTATION_CONTEXT('','3D')
);
#233=(
GEOMETRIC_REPRESENTATION_CONTEXT(3)
GLOBAL_UNCERTAINTY_ASSIGNED_CONTEXT((#231))
GLOBAL_UNIT_ASSIGNED_CONTEXT((#234,#236,#237))
REPRESENTATION_CONTEXT('','3D')
);
#234=(
LENGTH_UNIT()
NAMED_UNIT(*)
SI_UNIT(.MILLI.,.METRE.)
);
#235=(
LENGTH_UNIT()
NAMED_UNIT(*)
SI_UNIT(.CENTI.,.METRE.)
);
#236=(
NAMED_UNIT(*)
PLANE_ANGLE_UNIT()
SI_UNIT($,.RADIAN.)
);
#237=(
NAMED_UNIT(*)
SI_UNIT($,.STERADIAN.)
SOLID_ANGLE_UNIT()
);
#238=SHAPE_DEFINITION_REPRESENTATION(#239,#240);
#239=PRODUCT_DEFINITION_SHAPE('',$,#242);
#240=SHAPE_REPRESENTATION('',(#137),#232);
#241=DESIGN_CONTEXT('part definition',#246,'design');
#242=PRODUCT_DEFINITION('0109','0109_01',#243,#241);
#243=PRODUCT_DEFINITION_FORMATION('',$,#248);
#244=PRODUCT_RELATED_PRODUCT_CATEGORY('0109_01','0109_01',(#248));
#245=APPLICATION_PROTOCOL_DEFINITION('international standard',
'ap203_configuration_controlled_3d_design_of_mechanical_parts_and_asse
mblies_mim_lf',2004,#246);
#246=APPLICATION_CONTEXT(
'Configuration Controlled 3D Design of Mechanical Parts and Assemblies');
#247=MECHANICAL_CONTEXT('part definition',#246,'mechanical');
#248=PRODUCT('0109','0109_01',$,(#247));
#249=PRESENTATION_STYLE_ASSIGNMENT((#250));
#250=SURFACE_STYLE_USAGE(.BOTH.,#253);
#251=SURFACE_STYLE_RENDERING_WITH_PROPERTIES($,#257,(#252));
#252=SURFACE_STYLE_TRANSPARENT(0.);
#253=SURFACE_SIDE_STYLE('',(#254,#251));
#254=SURFACE_STYLE_FILL_AREA(#255);
#255=FILL_AREA_STYLE('',(#256));
#256=FILL_AREA_STYLE_COLOUR('',#257);
#257=COLOUR_RGB('',0.749019607843137,0.749019607843137,0.749019607843137);
ENDSEC;
END-ISO-10303-21;
